The Prodigy 24 pcs sticker set

Order here

Voodoo People

Intro/Verse:

e:--------------------------------------------------------|
B:--------------------------------------------------------|
G:--------------------------------------------------------|
D:-4-6-6--4-6-6-4-6-6--4-6-6--4-6-6--4-6-6-4-6-6--4-6-6-7-|
A:-4-6-6--4-6-6-4-6-6--4-6-6--4-6-6--4-6-6-4-6-6--4-6-6-7-|
D:-4-6-6--4-6-6-4-6-6--4-6-6--4-6-6--4-6-6-4-6-6--4-6-6-7-|

(Feedbacks)

Part with no drums: (originally not by guitar)

e:--------------------------------------|
B:------7----------8--8-8^6-------------|
G:--6^8-----6--6-6----------9-6---------|
D:--------------------------------------|
A:--------------------------------------|
D:--------------------------------------|
(Continues into Drums)

Quiet riff:
e:--------------------------------------|
B:--9-9--9-9--9-9----9-9--9-9-10-10-----|
G:--------------------------------------|
D:--------------------------------------|
A:--------------------------------------|
D:--------------------------------------|

Not by guitar by you can play it:
e:---------------------|------------------------|
B:----7----------------|----7-------------------|
G:-----8-8----9-8-9-8--|-----8-8-8-----8---8----|
D:--6------6-----------|--6---------6----7---7--|
A:---------------------|------------------------|
D:---------------------|------------------------|

Jump to tabs main | Prodigy main