Their Law


Main Intro Riff

Play this twice...then this
E|-------------|----------------------
B|-------------|----------------------
G|-------------|----------------------
D|-7-7-7-7-8-5-|-7-7-7-7-7-7-7-7-8-5--
A|-7-7-7-7-8-5-|-7-7-7-7-7-7-7-7-8-5--
E|-5-5-5-5-6-3-|-5-5-5-5-5-5-5-5-6-3--
[heavy palm muting]

Then it goes a bit higher...
E|-------------|----------------------
B|-------------|----------------------
G|-5-5-5-5-6-3-|-5-5-5-5-5-5-5-5-6-3--
D|-5-5-5-5-6-3-|-5-5-5-5-5-5-5-5-6-3--
A|-3-3-3-3-4-1-|-3-3-3-3-3-3-3-3-4-1--
E|-------------|----------------------

Then the song slows down and this part comes in:
E|------------|--------------|-----------|-----------------
B|------------|--------------|-----------|-----------------
G|-----7---7--|-----7--------|-----7---7-|-----7-----------
D|-----7---7--|-----7--2-3-2-|-----7---7-|-----7-----------
A|-----5---5--|-----5--2-3-2-|-----5---5-|-----5--7-8-7-5--
E|-0-0---0----|-0-0----0-1-0-|-0-0---0---|-0-0-------------

And on the live version (on the 'Breathe' single), guitarist Gizz does the
following:
E|------------------------------
B|------------------------------
G|-9-9----10-10---12-12---13-13-
D|-9-9----10-10---12-12---13-13-
A|-7-7----8--8----10-10---11-11-
E|------------------------------

Their Law

You might have some problems with this song cause in the original song the guitar parts are time stretched.

Guitar part:

Intro/Verse

"What we’re dealing with here is a total lack of respect for the law"

A Bb G
e :--------------------------------------------------------|
B:--------------------------------------------------------|
G:--------------------------------------------------------|

D:-7-7-7-7-8-5--7-7-7-7-8-5--7-7-7-7-7-7-7-7-8-5--|
A:-7-7-7-7-8-5--7-7-7-7-8-5--7-7-7-7-7-7-7-7-8-5--|
D:-7-7-7-7-8-5--7-7-7-7-8-5--7-7-7-7-7-7-7-7-8-5--|

then:

C C# B
e:----------------------------------------------------------------------------------|
B:----------------------------------------------------------------------------------|
G:----------------------------------------------------------------------------------|
D:---10-10-10-10-11-8--10-10-10-10-11-8--10-10-10-10-10-10-10-10-11-8-|
A:---10-10-10-10-11-8--10-10-10-10-11-8--10-10-10-10-10-10-10-10-11-8-|
D:---10-10-10-10-11-8--10-10-10-10-11-8--10-10-10-10-10-10-10-10-11-8-|

then play the verse riff again

Break:
"FUCK’EM, AND THEIR LAW"

D D G F# G F#
e:---------------------------------------------------|
B:--------------------------------------------------|
G:--------------------------------------------------|
D:--0--0--12---0--12-----0--0--12---------------|
A:--0--0--12---0--12-----0--0--12--3--2--3--2--|
D:--0--0--12---0--12-----0--0--12--3--2--3--2--|

e:-------------------------------------------------|
B:------------------------------------------------|
G:------------------------------------------------|
D:--0--0--12--0--12----0--0--12----16-17-13-|
A:--0--0--12--0--12----0--0--12---------------|
D:--0--0--12--0--12----0--0--12---------------|

Bass Tab:

Very fast

G:|-----------------------------------------|
D:|-----------------------------------------|
A:|-----------------------------------------|
E:|-2222-3-0--2222-3-0--22222222-3-0-|

G:|------------------------------------------|
D:|------------------------------------------|
A:|-2222-3-0--2222-3-0--22222222-3-0-|
E:|------------------------------------------|

G:|--------------------------------------|
D:|--------------------------------------|
A:|-555-X-55-55-7-8-7----------------|
E:|--------------------------------------|


G:|----------------------------------|
D:|----------------------------------|
A:|-555-X-55-55-9-10-9-6--------|
E:|----------------------------------|

Jump to tabs main | Prodigy main