Rat Poison

Transcripted by Peter C.

Bass #1:
G-|-------
D-|-------
A-|-==>8--
E-|-------

G-|-------------------------------------------------------------------|
D-|-------------------------------------------------------------------|
A-|--------------------------------==>8-------------------------------|
E-|---1---1-----1-1-1---1---3-----4-----1---1-----1-1-1---1---3-----4-|

G-|-------------------------------------------------------------------|
D-|-------------------------------------------------------------------|
A-|--------------------------------==>8-------------------------------|
E-|-1-1---1-----1-1-1---1---3-----4-----1---1-----1-1-1---1---3-----4-|
 
Play this once, and all other start playing with
G-|--------------
D-|--------------
A-|--------------
E-|-4-1---1-etc.-

"IgotIgotIgotIgotta... "

Lead guitar:

E-|---------------------------------|
B-|---------------------------------|
G-|-1-------1-----1-------0-------1-|
D-|---3-3-3---3-3---3---3-----------|
A-|---------------------------------|
E-|---------------------------------|

Bass #2:
G-|---------------------------------|
D-|---------------------------------|
A-|---------------------------------|
E-|-1-----------4-------3---------4-|
Bass is covered with synth sounds
(like something liquid falls &-()

Jump to tabs main | Prodigy main