One Man Army - Tom Morello/Liam Howlett

Transcribed by Kenny Luong (kenny.luong@usa.net)
Intro

E|-----------|
B|-----------|
G|-----------|
D|-----------|
A|-----------|
E|--2--5--3--|

E|-----------------------------------------------------------|
B|-----------------------------------------------------------|
G|-----------------------------------------------------------|
D|-----------------------------------------------------------|
A|-----------------------------------------------2--4--------|
E|--3h2-0-0-00--3h2-0-0-00--3h2-0-0-00--3h2-0-3--------0--2--|

E|-----------------------------------------------------------------|
B|-----------------------------------------------------------------|
G|--------------------------------------------------------2--------|
D|-----------------------------------------4--2--4--2--4-----4--3--|
A|-----------------------------------------------------------------|
E|--3h2-0-0-00--3h2-0-0-00--3h2-0-0-00--3--------------------------|

E|--------------------------------|
B|--------------------------------|
G|-----------------------2--------|
D|--------4--2--4--2--4-----4--3--|
A|--3--3--------------------------|
E|--------------------------------|

E|-----------------------|
B|-----------------------|
G|-----------------------|
D|-----------3-----------|
A|--3--3--5------5--3/1--|
E|-----------------------|

E|----------|
B|----------|
G|--6----6--|
D|----------|
A|----------|
E|----------|

Verse
E|--------|------|
B|--------|--^7--|
G|--------|------|
D|--4--4--|------|
A|--2--2--|------|
E|--------|------|

To get that biping distortion noise at the end of these riffs, Karate chop the strings near the bridge while toggling the pickup switch (Off And On). This riff appears often so listen out

Pre Chorus
E|--------------------------|
B|--------------------------|
G|-----------------2--------|
D|--4--2--4--2--4-----4--3--|
A|--------------------------|
E|--------------------------|

E|--------|
B|--------|
G|--------|
D|--4--4--|
A|--2--2--|
E|--------|

E|-----------------|
B|-----------------|
G|-----------------|
D|------4-4-4------|
A|--3-----------3--|
E|-----------------|

1st Chorus
E|-----------|
B|-----------|
G|-----------|
D|-----------|
A|-----------|
E|--2--5--3--|

E|-----------------------------------------------------------|
B|-----------------------------------------------------------|
G|-----------------------------------------------------------|
D|-----------------------------------------------------------|
A|-----------------------------------------------2--4--------|
E|--3h2-0-0-00--3h2-0-0-00--3h2-0-0-00--3h2-0-3--------0--2--|

E|-----------------------------------------------------------------|
B|-----------------------------------------------------------------|
G|--------------------------------------------------------2--------|
D|-----------------------------------------4--2--4--2--4-----4--3--|
A|-----------------------------------------------------------------|
E|--3h2-0-0-00--3h2-0-0-00--3h2-0-0-00--3--------------------------|

E|----------|
B|----------|
G|--6----6--|
D|----------|
A|----------|
E|----------|

Do some bulls on parade style scratching on the strings by rubbing your fingers on the 6th and 5th string while toggling the pickup switch (Off And On). This riff occurs often so listen out for it

2nd Chorus
E|--------|
B|--------|
G|--------|
D|--4--4--|
A|--2--2--|
E|--------|

E|----------------------------------------|
B|----------------------------------------|
G|--15/13/15/13/15--13-16-13-13-16-13-13--|
D|----------------------------------------|
A|----------------------------------------|
E|----------------------------------------|

Outro
E|-----------------------|
B|-----------------------|
G|-----------------------|
D|-----------3-----------|
A|--3--3--5------5--3/1--|
E|-----------------------|

E|-------------------------------|
B|-------------------------------|
G|----------------------2--------|
D|-------4--2--4--2--4-----4--3--|
A|-3--3--------------------------|
E|-------------------------------|

One Man Army (version 2)

Intro

E|------------|
B|------------|
G|------------|
D|------------|
A|------------|
E|--2--5--3--|

E|--------------------------------------------------------------------|
B|--------------------------------------------------------------------|
G|--------------------------------------------------------------------|
D|--------------------------------------------------------------------|
A|-----------------------------------------------2--4----------------|
E|--3h2-0-0-00--3h2-0-0-00--3h2-0-0-00--3h2-0-3------0--2--|

E|-----------------------------------------------------------------------|
B|-----------------------------------------------------------------------|
G|--------------------------------------------------------2--------------|
D|-----------------------------------------4--2--4--2--4-----4--3-----|
A|-----------------------------------------------------------------------|
E|--3h2-0-0-00--3h2-0-0-00--3h2-0-0-00--3-----------------------|

E|------------------------------------|
B|------------------------------------|
G|-----------------------2-----------|
D|--------4--2--4--2--4-----4--3---|
A|--3--3-----------------------------|
E|------------------------------------|

E|---------------------------|
B|---------------------------|
G|---------------------------|
D|-----------3---------------|
A|--3--3--5------5--3/1----|
E|---------------------------|

E|------------|
B|------------|
G|--6----6---|
D|------------|
A|------------|
E|------------|

Verse
E|---------------|
B|----------^7--|
G|---------------|
D|--4--4--------|
A|--2--2--------|
E|---------------|

Pre Chorus
E|-----------------------------|
B|-----------------------------|
G|-----------------2----------|
D|--4--2--4--2--4-----4--3--|
A|----------------------------|
E|-----------------------------|

E|----------|
B|----------|
G|----------|
D|--4--4---|
A|--2--2---|
E|----------|

E|-------------------|
B|-------------------|
G|-------------------|
D|------4-4-4-------|
A|--3-----------3---|
E|-------------------|

1st Chorus
E|------------|
B|------------|
G|------------|
D|------------|
A|------------|
E|--2--5--3--|

E|--------------------------------------------------------------------|
B|--------------------------------------------------------------------|
G|--------------------------------------------------------------------|
D|--------------------------------------------------------------------|
A|-----------------------------------------------2--4----------------|
E|--3h2-0-0-00--3h2-0-0-00--3h2-0-0-00--3h2-0-3--------0--2--|

E|-------------------------------------------------------------------------|
B|-------------------------------------------------------------------------|
G|--------------------------------------------------------2----------------|
D|-----------------------------------------4--2--4--2--4-----4--3-------|
A|-------------------------------------------------------------------------|
E|--3h2-0-0-00--3h2-0-0-00--3h2-0-0-00--3-------------------------|

E|------------|
B|------------|
G|--6----6---|
D|------------|
A|------------|
E|------------|

2nd Chorus
E|---------|
B|---------|
G|---------|
D|--4--4--|
A|--2--2--|
E|---------|

E|-----------------------------------------------|
B|-----------------------------------------------|
G|--15/13/15/13/15--13-16-13-13-16-13-13--|
D|-----------------------------------------------|
A|-----------------------------------------------|
E|-----------------------------------------------|

Outro
E|-------------------------|
B|-------------------------|
G|-------------------------|
D|-----------3------------|
A|--3--3--5------5--3/1--|
E|-------------------------|

E|----------------------------------|
B|----------------------------------|
G|----------------------2----------|
D|-------4--2--4--2--4-----4--3--|
A|-3--3----------------------------|
E|----------------------------------|

Jump to tabs main | Prodigy main