Molotov Bitch


Main riff:
E-|-10-----14-----8^8---13--11---
B-|-------------------------------
G-|--------------------------------
D-|---------------------------------
A-|----------------------------------
E-|-----------------------------------

Guitar #2:
E-|------------------------------
B-|-------------------------------
G-|--------------------------------
D-|-10------------------10-----------
A-|-10------------------10------------
E-|-8----------6=>>8----8-------6=>>8--

Jump to tabs main | Prodigy main