Funky Shit

Main bass riff:
G-|-------------------------------------------------------------------------------|
D-|-------------------------------------------------------------------------------|
A-|---------------------6---5----------------------------------------------------|
E-|-7-7-7-7-5-7-7-7-7-7---7---7-7-7-8-7-7-7-7-7-8-7-8-7-7-7-5-7-7-7---|

bass pump-in riff:
G-|-----------------------2-----2-4---|
D-|-----------------0-2-4-----4-------|
A-|---0---0---2---2-------------------|
E-|-2----------------------------------|

Play main bass riff again

Quiet part:
G-|-6-6-6-6-8-8-8-8-8-8-8-8-8-8-8-8-6-8-8-8-6-8-8-8-8-8-8-8-8-8-8-8-8-|
D-|--------------------------------------------------------------------------------|
A-|--------------------------------------------------------------------------------|
E-|---------------------------------------------------------------------------------|

G-|-6-8-8-8-6-8-8-8-8-8-8-8-8-8-8-8-6-8-8-8-6-8-8-8-8-8-8-8-8-8-8-8-|
D-|------------------------------------------------------------------------------|
A-|------------------------------------------------------------------------------|
E-|------------------------------------------------------------------------------|

Jump to tabs main | Prodigy main