Firestarter

Intro:

E|--------------------------------------------------------------|
B|---11-----11------11-----/---9-------/-11-----/-13--------- |
G|---13^----13^-----13^----/---11^-----/-13^----/-15^----- |
D|------------------------------------------------------------- |
A|--------------------------------------------------------------|
E|--------------------------------------------------------------|

Verse:

E|----------------------------------------------------------|
B|----------------------------------------------------------|
G|--14--14--14--14--14--14--14-------------------------|
D|----------------------------------------------------------|
A|----------------------------------------------------------|
E|----------------------------------------------------------|

I’m the firestarer, twisted firestarter

E|-------------------------------------------------------|
B|-------------------------------------------------------|
G|-13-13-13-13-13-13/14-14-14-14-14-14-----------|
D|-------------------------------------------------------|
A|-------------------------------------------------------|
E|-------------------------------------------------------|

Jump to tabs main | Prodigy main