Climbatize

Bass
G-|----------------------------------------------------------------|
D-|----------------------------------------------------------------|
A-|---0---0---0---0---0---2---0----------------------------------|
E-|-0---------------------------2-0---2---2---2-0---2---2-0---2-|

G-|-----------------------------------------------------------------|
D-|-----------------------------------------------------------------|
A-|---0---0---0---0---0---2---0-----0---2---2-0---2---2-0---2--|
E-|-0---------------------------2-----------------------------------|

 

 

Jump to tabs main | Prodigy main