The Prodigy's Breathe tabs


This is the main distorted rhythm bit
E|---------------------|---------------------------------------
B|---------------------|---slide upwards-----------------------
G|----------------7----|--7-8-9-10-11-12-----------------------
D|-8------7---5---7----|--7-8-9-10-11-12-----------------------
A|-8------7---5---5----|--5-6-7-8--9--10-----------------------
E|-6------5---3--------|---------------------------------------
..come...play my game......psychosomatic-addict-insane

And the strummed acoustic bit...(Just strum F,E and D until it sounds right! )
F F F F F F E E E E E E D D D D
E|--1-1--1-1-1--1---------------2-2-2-2---------
B|--1-1--1-1-1--1-0-0--0-0-0-0--3-3-3-3---------
G|--2-2--2-2-2--2-1-1--1-1-1-1--2-2-2-2---------
D|--3-3--3-3-3--3-2-2--2-2-2-2--0-0-0-0---------
A|--0-0--0-0-0--0-2-2--2-2-2-2--0-0-0-0---------
E|----------------------------------------------

 

Breathe

Intro and Main riff:
E|------------------------------------------------------------------------------|
B|------------------------------------------------------------------------------|
G|------------------------------------------------------------------------------|
D|-----------------4-------4---------------0---0---0---0---0---0---0---0-0--|
A|-6---6---6---6-------6-------8---6---8-------------------------------------|
E|------------------------------------------------------------------------------|

Chorus:

breathe the pressure come play my game, I’ll test ya
E|-6-------------------------------5---------------4---------------3----------|
B|-6-------------------------------5---------------4---------------4----------|
G|-6-------------------------------5---------------4---------------3----------|
D|-8-------------------------------7---------------6---------------5----------|
A|-8-------------------------------7---------------6---------------6----------|
E|-6-------------------------------5---------------4---------------3----------|

Quiet part:
E|-------------------------------------------------------------------------------------------|
B|-------------------------------------------------------------------------------------------|
G|-------------------------------------------------------------------------------------------|
D|-------------------------------------------------------------------------------------------|
A|-9-------9-------9---8-----------6---8-------8---8-------6-------6---6---5-------6-8--|
E|-11------11------11--11----------6---8-------8---8-------6-------6---6---5-------6-8-|

Jump to tabs main | Prodigy main